ISO-10303-21;
HEADER;
FILE_DESCRIPTION (( 'STEP AP203' ),
    '1' );
FILE_NAME ('BK7-BSC-12.7-400-700.STEP',
    '2020-12-22T03:17:01',
    ( '' ),
    ( '' ),
    'SwSTEP 2.0',
    'SolidWorks 2020',
    '' );
FILE_SCHEMA (( 'CONFIG_CONTROL_DESIGN' ));
ENDSEC;

DATA;
#1 = LINE ( 'NONE', #257, #196 ) ;
#2 = APPLICATION_CONTEXT ( 'configuration controlled 3d designs of mechanical parts and assemblies' ) ;
#3 = ORIENTED_EDGE ( 'NONE', *, *, #82, .F. ) ;
#4 = ADVANCED_FACE ( 'NONE', ( #106 ), #35, .F. ) ;
#5 = FACE_OUTER_BOUND ( 'NONE', #88, .T. ) ;
#6 = EDGE_LOOP ( 'NONE', ( #284, #289, #268 ) ) ;
#7 = LINE ( 'NONE', #34, #92 ) ;
#8 = CARTESIAN_POINT ( 'NONE',  ( 0.000000000000000000, 0.000000000000000000, 6.349999999999999645 ) ) ;
#9 = CC_DESIGN_APPROVAL ( #290, ( #14 ) ) ;
#10 = VERTEX_POINT ( 'NONE', #85 ) ;
#11 = CARTESIAN_POINT ( 'NONE',  ( -6.349999999999999645, -6.350000000000000533, -6.349999999999999645 ) ) ;
#12 = EDGE_LOOP ( 'NONE', ( #107, #218, #137 ) ) ;
#13 = ADVANCED_FACE ( 'NONE', ( #69 ), #161, .T. ) ;
#14 = SECURITY_CLASSIFICATION ( '', '', #70 ) ;
#15 = ORIENTED_EDGE ( 'NONE', *, *, #51, .T. ) ;
#16 = APPROVAL_ROLE ( '' ) ;
#17 = UNCERTAINTY_MEASURE_WITH_UNIT (LENGTH_MEASURE( 1.000000000000000082E-05 ), #232, 'distance_accuracy_value', 'NONE');
#18 = ORIENTED_EDGE ( 'NONE', *, *, #54, .F. ) ;
#19 = CARTESIAN_POINT ( 'NONE',  ( 6.349999999999996980, 6.349999999999996980, 6.349999999999999645 ) ) ;
#20 = VECTOR ( 'NONE', #209, 1000.000000000000000 ) ;
#21 = APPROVAL_DATE_TIME ( #42, #76 ) ;
#22 = LINE ( 'NONE', #118, #215 ) ;
#23 = MANIFOLD_SOLID_BREP ( '¾µÏ', #206 ) ;
#24 = CALENDAR_DATE ( 2020, 22, 12 ) ;
#25 = DIRECTION ( 'NONE',  ( -1.000000000000000000, 2.903408047666378392E-16, 0.000000000000000000 ) ) ;
#26 = PERSON_AND_ORGANIZATION_ROLE ( 'design_supplier' ) ;
#27 = LINE ( 'NONE', #122, #201 ) ;
#28 = ADVANCED_FACE ( 'NONE', ( #5 ), #141, .F. ) ;
#29 = CALENDAR_DATE ( 2020, 22, 12 ) ;
#30 = DIRECTION ( 'NONE',  ( -2.220446049250312588E-16, 1.000000000000000000, 0.000000000000000000 ) ) ;
#31 = CARTESIAN_POINT ( 'NONE',  ( 6.349999999999998757, 6.349999999999998757, -6.349999999999999645 ) ) ;
#32 = PRODUCT ( 'BK7-BSC-12.7-400-700', 'BK7-BSC-12.7-400-700', '', ( #169 ) ) ;
#33 = FACE_OUTER_BOUND ( 'NONE', #12, .T. ) ;
#34 = CARTESIAN_POINT ( 'NONE',  ( -6.349999999999999645, -6.350000000000000533, 6.349999999999999645 ) ) ;
#35 = PLANE ( 'NONE',  #173 ) ;
#36 = ORIENTED_EDGE ( 'NONE', *, *, #51, .F. ) ;
#37 = ORIENTED_EDGE ( 'NONE', *, *, #54, .T. ) ;
#38 = PERSON_AND_ORGANIZATION_ROLE ( 'creator' ) ;
#39 = DIRECTION ( 'NONE',  ( 0.000000000000000000, 1.000000000000000000, 0.000000000000000000 ) ) ;
#40 = ORIENTED_EDGE ( 'NONE', *, *, #82, .T. ) ;
#41 = DIRECTION ( 'NONE',  ( 1.000000000000000000, -2.903408047666378392E-16, 0.000000000000000000 ) ) ;
#42 = DATE_AND_TIME ( #147, #252 ) ;
#43 = CARTESIAN_POINT ( 'NONE',  ( -6.350000000000002309, 6.350000000000001421, 6.349999999999999645 ) ) ;
#44 = COORDINATED_UNIVERSAL_TIME_OFFSET ( 8, 0, .AHEAD. ) ;
#45 = DIRECTION ( 'NONE',  ( 0.000000000000000000, 0.000000000000000000, -1.000000000000000000 ) ) ;
#46 = APPLICATION_PROTOCOL_DEFINITION ( 'international standard', 'config_control_design', 1994, #2 ) ;
#47 = DIRECTION ( 'NONE',  ( 0.000000000000000000, 0.000000000000000000, 1.000000000000000000 ) ) ;
#48 = DIRECTION ( 'NONE',  ( -2.220446049250312588E-16, 1.000000000000000000, 0.000000000000000000 ) ) ;
#49 = VECTOR ( 'NONE', #41, 1000.000000000000000 ) ;
#50 = PRODUCT_DEFINITION_SHAPE ( 'NONE', 'NONE',  #178 ) ;
#51 = EDGE_CURVE ( 'NONE', #272, #243, #183, .T. ) ;
#52 = AXIS2_PLACEMENT_3D ( 'NONE', #246, #275, #210 ) ;
#53 = VERTEX_POINT ( 'NONE', #19 ) ;
#54 = EDGE_CURVE ( 'NONE', #86, #158, #237, .T. ) ;
#55 = ORGANIZATION ( 'UNSPECIFIED', 'UNSPECIFIED', '' ) ;
#56 = DIRECTION ( 'NONE',  ( -0.000000000000000000, 0.000000000000000000, 1.000000000000000000 ) ) ;
#57 = APPROVAL ( #219, 'UNSPECIFIED' ) ;
#58 = DIRECTION ( 'NONE',  ( 1.000000000000000000, 0.000000000000000000, 0.000000000000000000 ) ) ;
#59 = VERTEX_POINT ( 'NONE', #286 ) ;
#60 = CARTESIAN_POINT ( 'NONE',  ( 6.349999999999996980, 6.349999999999996980, 6.349999999999999645 ) ) ;
#61 = ORIENTED_EDGE ( 'NONE', *, *, #214, .F. ) ;
#62 = VECTOR ( 'NONE', #48, 1000.000000000000000 ) ;
#63 = ORIENTED_EDGE ( 'NONE', *, *, #185, .T. ) ;
#64 = CC_DESIGN_DATE_AND_TIME_ASSIGNMENT ( #93, #120, ( #178 ) ) ;
#65 = VERTEX_POINT ( 'NONE', #221 ) ;
#66 = AXIS2_PLACEMENT_3D ( 'NONE', #8, #56, #238 ) ;
#67 = ORIENTED_EDGE ( 'NONE', *, *, #112, .T. ) ;
#68 = CARTESIAN_POINT ( 'NONE',  ( 6.349999999999999645, -6.350000000000000533, 6.349999999999999645 ) ) ;
#69 = FACE_OUTER_BOUND ( 'NONE', #6, .T. ) ;
#70 = SECURITY_CLASSIFICATION_LEVEL ( 'unclassified' ) ;
#71 = LINE ( 'NONE', #43, #167 ) ;
#72 = SHAPE_DEFINITION_REPRESENTATION ( #50, #205 ) ;
#73 = AXIS2_PLACEMENT_3D ( 'NONE', #168, #77, #202 ) ;
#74 = CARTESIAN_POINT ( 'NONE',  ( -6.349999999999998757, -6.349999999999997868, -6.349999999999999645 ) ) ;
#75 = DIRECTION ( 'NONE',  ( 0.000000000000000000, 0.000000000000000000, 1.000000000000000000 ) ) ;
#76 = APPROVAL ( #96, 'UNSPECIFIED' ) ;
#77 = DIRECTION ( 'NONE',  ( 0.7071067811865475727, -0.7071067811865475727, 0.000000000000000000 ) ) ;
#78 = CARTESIAN_POINT ( 'NONE',  ( -6.349999999999998757, -6.349999999999997868, 6.349999999999999645 ) ) ;
#79 = DIRECTION ( 'NONE',  ( 0.7071067811865475727, 0.7071067811865475727, 0.000000000000000000 ) ) ;
#80 = LINE ( 'NONE', #128, #81 ) ;
#81 = VECTOR ( 'NONE', #125, 999.9999999999998863 ) ;
#82 = EDGE_CURVE ( 'NONE', #65, #53, #212, .T. ) ;
#83 = APPROVAL_PERSON_ORGANIZATION ( #115, #57, #16 ) ;
#84 = CARTESIAN_POINT ( 'NONE',  ( 6.349999999999996980, 6.349999999999996980, 6.349999999999999645 ) ) ;
#85 = CARTESIAN_POINT ( 'NONE',  ( -6.349999999999999645, -6.350000000000000533, -6.349999999999999645 ) ) ;
#86 = VERTEX_POINT ( 'NONE', #68 ) ;
#87 = AXIS2_PLACEMENT_3D ( 'NONE', #191, #97, #25 ) ;
#88 = EDGE_LOOP ( 'NONE', ( #61, #36, #164, #63 ) ) ;
#89 = VECTOR ( 'NONE', #225, 1000.000000000000114 ) ;
#90 = EDGE_CURVE ( 'NONE', #111, #310, #152, .T. ) ;
#91 = VERTEX_POINT ( 'NONE', #165 ) ;
#92 = VECTOR ( 'NONE', #155, 1000.000000000000000 ) ;
#93 = DATE_AND_TIME ( #24, #113 ) ;
#94 = CC_DESIGN_PERSON_AND_ORGANIZATION_ASSIGNMENT ( #222, #26, ( #181 ) ) ;
#95 = EDGE_LOOP ( 'NONE', ( #241, #190, #186, #37 ) ) ;
#96 = APPROVAL_STATUS ( 'not_yet_approved' ) ;
#97 = DIRECTION ( 'NONE',  ( -2.903408047666378392E-16, -1.000000000000000000, 0.000000000000000000 ) ) ;
#98 = EDGE_CURVE ( 'NONE', #86, #91, #189, .T. ) ;
#99 = PERSON_AND_ORGANIZATION_ROLE ( 'design_owner' ) ;
#100 = FACE_OUTER_BOUND ( 'NONE', #95, .T. ) ;
#101 = CARTESIAN_POINT ( 'NONE',  ( 6.349999999999998757, 6.349999999999998757, 6.349999999999999645 ) ) ;
#102 = DATE_AND_TIME ( #244, #234 ) ;
#103 = EDGE_CURVE ( 'NONE', #59, #10, #7, .T. ) ;
#104 = CC_DESIGN_APPROVAL ( #57, ( #178 ) ) ;
#105 = ADVANCED_FACE ( 'NONE', ( #33 ), #273, .F. ) ;
#106 = FACE_OUTER_BOUND ( 'NONE', #267, .T. ) ;
#107 = ORIENTED_EDGE ( 'NONE', *, *, #260, .T. ) ;
#108 = CARTESIAN_POINT ( 'NONE',  ( 6.349999999999998757, 6.349999999999998757, 6.349999999999999645 ) ) ;
#109 = APPLICATION_CONTEXT ( 'configuration controlled 3d designs of mechanical parts and assemblies' ) ;
#110 = CARTESIAN_POINT ( 'NONE',  ( 6.349999999999998757, 6.349999999999998757, 6.349999999999999645 ) ) ;
#111 = VERTEX_POINT ( 'NONE', #295 ) ;
#112 = EDGE_CURVE ( 'NONE', #53, #310, #308, .T. ) ;
#113 = LOCAL_TIME ( 11, 17, 1.000000000000000000, #44 ) ;
#114 = ORIENTED_EDGE ( 'NONE', *, *, #198, .F. ) ;
#115 = PERSON_AND_ORGANIZATION ( #288, #55 ) ;
#116 = FACE_OUTER_BOUND ( 'NONE', #135, .T. ) ;
#117 = PERSON_AND_ORGANIZATION ( #288, #55 ) ;
#118 = CARTESIAN_POINT ( 'NONE',  ( -6.349999999999998757, -6.349999999999997868, -6.349999999999999645 ) ) ;
#119 = EDGE_CURVE ( 'NONE', #10, #158, #182, .T. ) ;
#120 = DATE_TIME_ROLE ( 'creation_date' ) ;
#121 = APPROVAL_STATUS ( 'not_yet_approved' ) ;
#122 = CARTESIAN_POINT ( 'NONE',  ( 6.349999999999996980, 6.349999999999996980, -6.349999999999999645 ) ) ;
#123 = APPROVAL_DATE_TIME ( #270, #57 ) ;
#124 = DIRECTION ( 'NONE',  ( -0.7071067811865475727, 0.7071067811865475727, 0.000000000000000000 ) ) ;
#125 = DIRECTION ( 'NONE',  ( -0.7071067811865475727, -0.7071067811865475727, 0.000000000000000000 ) ) ;
#126 = EDGE_CURVE ( 'NONE', #91, #316, #263, .T. ) ;
#127 = MANIFOLD_SOLID_BREP ( 'Í¹Ì¨-À', #187 ) ;
#128 = CARTESIAN_POINT ( 'NONE',  ( 6.349999999999996980, 6.349999999999996980, 6.349999999999999645 ) ) ;
#129 = DIRECTION ( 'NONE',  ( -0.000000000000000000, 0.000000000000000000, 1.000000000000000000 ) ) ;
#130 = LOCAL_TIME ( 11, 17, 1.000000000000000000, #321 ) ;
#131 = DIRECTION ( 'NONE',  ( 0.000000000000000000, 0.000000000000000000, 1.000000000000000000 ) ) ;
#132 = DIRECTION ( 'NONE',  ( 0.000000000000000000, 0.000000000000000000, -1.000000000000000000 ) ) ;
#133 = AXIS2_PLACEMENT_3D ( 'NONE', #250, #254, #223 ) ;
#134 = DIRECTION ( 'NONE',  ( -2.220446049250312588E-16, 1.000000000000000000, 0.000000000000000000 ) ) ;
#135 = EDGE_LOOP ( 'NONE', ( #274, #177, #40, #67 ) ) ;
#136 = VECTOR ( 'NONE', #58, 1000.000000000000000 ) ;
#137 = ORIENTED_EDGE ( 'NONE', *, *, #90, .T. ) ;
#138 = ADVANCED_FACE ( 'NONE', ( #116 ), #317, .F. ) ;
#139 = ORIENTED_EDGE ( 'NONE', *, *, #119, .F. ) ;
#140 = PERSON_AND_ORGANIZATION ( #288, #55 ) ;
#141 = PLANE ( 'NONE',  #52 ) ;
#142 = CARTESIAN_POINT ( 'NONE',  ( 0.000000000000000000, 0.000000000000000000, 0.000000000000000000 ) ) ;
#143 = CARTESIAN_POINT ( 'NONE',  ( 6.349999999999999645, -6.350000000000000533, 6.349999999999999645 ) ) ;
#144 = CARTESIAN_POINT ( 'NONE',  ( 6.349999999999998757, 6.349999999999998757, -6.349999999999999645 ) ) ;
#145 = PERSON_AND_ORGANIZATION ( #288, #55 ) ;
#146 = PLANE ( 'NONE',  #151 ) ;
#147 = CALENDAR_DATE ( 2020, 22, 12 ) ;
#148 = CC_DESIGN_PERSON_AND_ORGANIZATION_ASSIGNMENT ( #224, #192, ( #178 ) ) ;
#149 =( NAMED_UNIT ( * ) PLANE_ANGLE_UNIT ( ) SI_UNIT ( $, .RADIAN. ) );
#150 = ADVANCED_FACE ( 'NONE', ( #296 ), #171, .F. ) ;
#151 = AXIS2_PLACEMENT_3D ( 'NONE', #300, #124, #79 ) ;
#152 = LINE ( 'NONE', #262, #236 ) ;
#153 = CARTESIAN_POINT ( 'NONE',  ( -6.349999999999998757, -6.349999999999997868, 6.349999999999999645 ) ) ;
#154 = EDGE_LOOP ( 'NONE', ( #235, #293, #188, #15 ) ) ;
#155 = DIRECTION ( 'NONE',  ( -0.000000000000000000, -0.000000000000000000, -1.000000000000000000 ) ) ;
#156 = CC_DESIGN_PERSON_AND_ORGANIZATION_ASSIGNMENT ( #253, #38, ( #181 ) ) ;
#157 = CC_DESIGN_APPROVAL ( #76, ( #181 ) ) ;
#158 = VERTEX_POINT ( 'NONE', #276 ) ;
#159 = ORIENTED_EDGE ( 'NONE', *, *, #291, .F. ) ;
#160 = EDGE_LOOP ( 'NONE', ( #213, #292, #264, #211 ) ) ;
#161 = PLANE ( 'NONE',  #66 ) ;
#162 = VECTOR ( 'NONE', #259, 1000.000000000000000 ) ;
#163 = CALENDAR_DATE ( 2020, 22, 12 ) ;
#164 = ORIENTED_EDGE ( 'NONE', *, *, #303, .T. ) ;
#165 = CARTESIAN_POINT ( 'NONE',  ( 6.349999999999998757, 6.349999999999998757, 6.349999999999999645 ) ) ;
#166 = DATE_AND_TIME ( #163, #130 ) ;
#167 = VECTOR ( 'NONE', #45, 1000.000000000000000 ) ;
#168 = CARTESIAN_POINT ( 'NONE',  ( 6.349999999999998757, 6.349999999999998757, 6.349999999999999645 ) ) ;
#169 = MECHANICAL_CONTEXT ( 'NONE', #109, 'mechanical' ) ;
#170 = FACE_OUTER_BOUND ( 'NONE', #240, .T. ) ;
#171 = PLANE ( 'NONE',  #73 ) ;
#172 = EDGE_CURVE ( 'NONE', #158, #316, #1, .T. ) ;
#173 = AXIS2_PLACEMENT_3D ( 'NONE', #283, #39, #180 ) ;
#174 = PLANE ( 'NONE',  #306 ) ;
#175 = LINE ( 'NONE', #78, #62 ) ;
#176 = CARTESIAN_POINT ( 'NONE',  ( 6.349999999999996980, 6.349999999999996980, -6.349999999999999645 ) ) ;
#177 = ORIENTED_EDGE ( 'NONE', *, *, #185, .F. ) ;
#178 = PRODUCT_DEFINITION ( 'UNKNOWN', '', #181, #287 ) ;
#179 = ADVANCED_FACE ( 'NONE', ( #170 ), #193, .T. ) ;
#180 = DIRECTION ( 'NONE',  ( 0.000000000000000000, -0.000000000000000000, 1.000000000000000000 ) ) ;
#181 = PRODUCT_DEFINITION_FORMATION_WITH_SPECIFIED_SOURCE ( 'ANY', '', #32, .NOT_KNOWN. ) ;
#182 = LINE ( 'NONE', #11, #136 ) ;
#183 = LINE ( 'NONE', #153, #285 ) ;
#184 = ORIENTED_EDGE ( 'NONE', *, *, #282, .F. ) ;
#185 = EDGE_CURVE ( 'NONE', #65, #111, #71, .T. ) ;
#186 = ORIENTED_EDGE ( 'NONE', *, *, #98, .F. ) ;
#187 = CLOSED_SHELL ( 'NONE', ( #150, #4, #208, #13, #314 ) ) ;
#188 = ORIENTED_EDGE ( 'NONE', *, *, #282, .T. ) ;
#189 = LINE ( 'NONE', #108, #281 ) ;
#190 = ORIENTED_EDGE ( 'NONE', *, *, #126, .F. ) ;
#191 = CARTESIAN_POINT ( 'NONE',  ( 6.349999999999996980, 6.349999999999996980, 6.349999999999999645 ) ) ;
#192 = PERSON_AND_ORGANIZATION_ROLE ( 'creator' ) ;
#193 = PLANE ( 'NONE',  #312 ) ;
#194 = CC_DESIGN_DATE_AND_TIME_ASSIGNMENT ( #102, #228, ( #14 ) ) ;
#195 = PLANE ( 'NONE',  #133 ) ;
#196 = VECTOR ( 'NONE', #277, 1000.000000000000000 ) ;
#197 = APPROVAL_ROLE ( '' ) ;
#198 = EDGE_CURVE ( 'NONE', #316, #10, #302, .T. ) ;
#199 = DIRECTION ( 'NONE',  ( -0.7071067811865474617, -0.7071067811865474617, 0.000000000000000000 ) ) ;
#200 = APPROVAL_DATE_TIME ( #166, #290 ) ;
#201 = VECTOR ( 'NONE', #227, 999.9999999999998863 ) ;
#202 = DIRECTION ( 'NONE',  ( 0.7071067811865474617, 0.7071067811865474617, 0.000000000000000000 ) ) ;
#203 = FACE_OUTER_BOUND ( 'NONE', #245, .T. ) ;
#204 = ADVANCED_FACE ( 'NONE', ( #319 ), #146, .F. ) ;
#205 = ADVANCED_BREP_SHAPE_REPRESENTATION ( 'BK7-BSC-12.7-400-700', ( #127, #23, #231 ), #261 ) ;
#206 = CLOSED_SHELL ( 'NONE', ( #204, #28, #138, #179, #105 ) ) ;
#207 = DIRECTION ( 'NONE',  ( 1.000000000000000000, -2.903408047666378392E-16, 0.000000000000000000 ) ) ;
#208 = ADVANCED_FACE ( 'NONE', ( #100 ), #195, .F. ) ;
#209 = DIRECTION ( 'NONE',  ( 0.000000000000000000, 0.000000000000000000, -1.000000000000000000 ) ) ;
#210 = DIRECTION ( 'NONE',  ( 0.000000000000000000, 0.000000000000000000, 1.000000000000000000 ) ) ;
#211 = ORIENTED_EDGE ( 'NONE', *, *, #126, .T. ) ;
#212 = LINE ( 'NONE', #60, #49 ) ;
#213 = ORIENTED_EDGE ( 'NONE', *, *, #198, .T. ) ;
#214 = EDGE_CURVE ( 'NONE', #243, #111, #22, .T. ) ;
#215 = VECTOR ( 'NONE', #298, 1000.000000000000000 ) ;
#216 = ORIENTED_EDGE ( 'NONE', *, *, #119, .T. ) ;
#217 = CC_DESIGN_PERSON_AND_ORGANIZATION_ASSIGNMENT ( #297, #99, ( #32 ) ) ;
#218 = ORIENTED_EDGE ( 'NONE', *, *, #214, .T. ) ;
#219 = APPROVAL_STATUS ( 'not_yet_approved' ) ;
#220 = ORIENTED_EDGE ( 'NONE', *, *, #103, .T. ) ;
#221 = CARTESIAN_POINT ( 'NONE',  ( -6.350000000000002309, 6.350000000000001421, 6.349999999999999645 ) ) ;
#222 = PERSON_AND_ORGANIZATION ( #288, #55 ) ;
#223 = DIRECTION ( 'NONE',  ( 6.829619984160658046E-17, -1.000000000000000000, 0.000000000000000000 ) ) ;
#224 = PERSON_AND_ORGANIZATION ( #288, #55 ) ;
#225 = DIRECTION ( 'NONE',  ( -0.7071067811865474617, -0.7071067811865474617, 0.000000000000000000 ) ) ;
#226 = APPROVAL_ROLE ( '' ) ;
#227 = DIRECTION ( 'NONE',  ( -0.7071067811865475727, -0.7071067811865475727, 0.000000000000000000 ) ) ;
#228 = DATE_TIME_ROLE ( 'classification_date' ) ;
#229 = APPROVAL_PERSON_ORGANIZATION ( #145, #290, #226 ) ;
#230 = CARTESIAN_POINT ( 'NONE',  ( -6.349999999999999645, -6.350000000000000533, 6.349999999999999645 ) ) ;
#231 = AXIS2_PLACEMENT_3D ( 'NONE', #142, #75, #294 ) ;
#232 =( LENGTH_UNIT ( ) NAMED_UNIT ( * ) SI_UNIT ( .MILLI., .METRE. ) );
#233 = CARTESIAN_POINT ( 'NONE',  ( 0.000000000000000000, 0.000000000000000000, -6.349999999999999645 ) ) ;
#234 = LOCAL_TIME ( 11, 17, 1.000000000000000000, #251 ) ;
#235 = ORIENTED_EDGE ( 'NONE', *, *, #260, .F. ) ;
#236 = VECTOR ( 'NONE', #207, 1000.000000000000000 ) ;
#237 = LINE ( 'NONE', #143, #249 ) ;
#238 = DIRECTION ( 'NONE',  ( 1.000000000000000000, 0.000000000000000000, 0.000000000000000000 ) ) ;
#239 = APPROVAL_PERSON_ORGANIZATION ( #117, #76, #197 ) ;
#240 = EDGE_LOOP ( 'NONE', ( #184, #3, #266 ) ) ;
#241 = ORIENTED_EDGE ( 'NONE', *, *, #172, .T. ) ;
#242 = LOCAL_TIME ( 11, 17, 1.000000000000000000, #256 ) ;
#243 = VERTEX_POINT ( 'NONE', #74 ) ;
#244 = CALENDAR_DATE ( 2020, 22, 12 ) ;
#245 = EDGE_LOOP ( 'NONE', ( #114, #313, #139 ) ) ;
#246 = CARTESIAN_POINT ( 'NONE',  ( -6.349999999999998757, -6.349999999999997868, 6.349999999999999645 ) ) ;
#247 = COORDINATED_UNIVERSAL_TIME_OFFSET ( 8, 0, .AHEAD. ) ;
#248 = CC_DESIGN_PERSON_AND_ORGANIZATION_ASSIGNMENT ( #140, #318, ( #14 ) ) ;
#249 = VECTOR ( 'NONE', #309, 1000.000000000000000 ) ;
#250 = CARTESIAN_POINT ( 'NONE',  ( 6.349999999999998757, 6.349999999999998757, 6.349999999999999645 ) ) ;
#251 = COORDINATED_UNIVERSAL_TIME_OFFSET ( 8, 0, .AHEAD. ) ;
#252 = LOCAL_TIME ( 11, 17, 1.000000000000000000, #247 ) ;
#253 = PERSON_AND_ORGANIZATION ( #288, #55 ) ;
#254 = DIRECTION ( 'NONE',  ( -1.000000000000000000, -6.829619984160658046E-17, 0.000000000000000000 ) ) ;
#255 = PRODUCT_RELATED_PRODUCT_CATEGORY ( 'detail', '', ( #32 ) ) ;
#256 = COORDINATED_UNIVERSAL_TIME_OFFSET ( 8, 0, .AHEAD. ) ;
#257 = CARTESIAN_POINT ( 'NONE',  ( 6.349999999999998757, 6.349999999999998757, -6.349999999999999645 ) ) ;
#258 = DIRECTION ( 'NONE',  ( 1.000000000000000000, 0.000000000000000000, 0.000000000000000000 ) ) ;
#259 = DIRECTION ( 'NONE',  ( 1.000000000000000000, 0.000000000000000000, 0.000000000000000000 ) ) ;
#260 = EDGE_CURVE ( 'NONE', #310, #243, #27, .T. ) ;
#261 =( GEOMETRIC_REPRESENTATION_CONTEXT ( 3 ) GLOBAL_UNCERTAINTY_ASSIGNED_CONTEXT ( ( #17 ) ) GLOBAL_UNIT_ASSIGNED_CONTEXT ( ( #232, #149, #280 ) ) REPRESENTATION_CONTEXT ( 'NONE', 'WORKASPACE' ) );
#262 = CARTESIAN_POINT ( 'NONE',  ( 6.349999999999996980, 6.349999999999996980, -6.349999999999999645 ) ) ;
#263 = LINE ( 'NONE', #110, #279 ) ;
#264 = ORIENTED_EDGE ( 'NONE', *, *, #269, .F. ) ;
#265 = CARTESIAN_POINT ( 'NONE',  ( 0.000000000000000000, 0.000000000000000000, -6.349999999999999645 ) ) ;
#266 = ORIENTED_EDGE ( 'NONE', *, *, #303, .F. ) ;
#267 = EDGE_LOOP ( 'NONE', ( #216, #18, #159, #220 ) ) ;
#268 = ORIENTED_EDGE ( 'NONE', *, *, #98, .T. ) ;
#269 = EDGE_CURVE ( 'NONE', #91, #59, #320, .T. ) ;
#270 = DATE_AND_TIME ( #29, #242 ) ;
#271 = CC_DESIGN_SECURITY_CLASSIFICATION ( #14, ( #181 ) ) ;
#272 = VERTEX_POINT ( 'NONE', #304 ) ;
#273 = PLANE ( 'NONE',  #315 ) ;
#274 = ORIENTED_EDGE ( 'NONE', *, *, #90, .F. ) ;
#275 = DIRECTION ( 'NONE',  ( 1.000000000000000000, -2.220446049250312588E-16, 0.000000000000000000 ) ) ;
#276 = CARTESIAN_POINT ( 'NONE',  ( 6.349999999999999645, -6.350000000000000533, -6.349999999999999645 ) ) ;
#277 = DIRECTION ( 'NONE',  ( -6.829619984160658046E-17, 1.000000000000000000, -0.000000000000000000 ) ) ;
#278 = CARTESIAN_POINT ( 'NONE',  ( 0.000000000000000000, 0.000000000000000000, 6.349999999999999645 ) ) ;
#279 = VECTOR ( 'NONE', #311, 1000.000000000000000 ) ;
#280 =( NAMED_UNIT ( * ) SI_UNIT ( $, .STERADIAN. ) SOLID_ANGLE_UNIT ( ) );
#281 = VECTOR ( 'NONE', #307, 1000.000000000000000 ) ;
#282 = EDGE_CURVE ( 'NONE', #53, #272, #80, .T. ) ;
#283 = CARTESIAN_POINT ( 'NONE',  ( -6.349999999999999645, -6.350000000000000533, 6.349999999999999645 ) ) ;
#284 = ORIENTED_EDGE ( 'NONE', *, *, #269, .T. ) ;
#285 = VECTOR ( 'NONE', #132, 1000.000000000000000 ) ;
#286 = CARTESIAN_POINT ( 'NONE',  ( -6.349999999999999645, -6.350000000000000533, 6.349999999999999645 ) ) ;
#287 = DESIGN_CONTEXT ( 'detailed design', #2, 'design' ) ;
#288 = PERSON ( 'UNSPECIFIED', 'UNSPECIFIED', 'UNSPECIFIED', ('UNSPECIFIED'), ('UNSPECIFIED'), ('UNSPECIFIED') ) ;
#289 = ORIENTED_EDGE ( 'NONE', *, *, #291, .T. ) ;
#290 = APPROVAL ( #121, 'UNSPECIFIED' ) ;
#291 = EDGE_CURVE ( 'NONE', #59, #86, #305, .T. ) ;
#292 = ORIENTED_EDGE ( 'NONE', *, *, #103, .F. ) ;
#293 = ORIENTED_EDGE ( 'NONE', *, *, #112, .F. ) ;
#294 = DIRECTION ( 'NONE',  ( 1.000000000000000000, 0.000000000000000000, 0.000000000000000000 ) ) ;
#295 = CARTESIAN_POINT ( 'NONE',  ( -6.350000000000002309, 6.350000000000001421, -6.349999999999999645 ) ) ;
#296 = FACE_OUTER_BOUND ( 'NONE', #160, .T. ) ;
#297 = PERSON_AND_ORGANIZATION ( #288, #55 ) ;
#298 = DIRECTION ( 'NONE',  ( -2.220446049250312588E-16, 1.000000000000000000, 0.000000000000000000 ) ) ;
#299 = APPLICATION_PROTOCOL_DEFINITION ( 'international standard', 'config_control_design', 1994, #109 ) ;
#300 = CARTESIAN_POINT ( 'NONE',  ( 6.349999999999996980, 6.349999999999996980, 6.349999999999999645 ) ) ;
#301 = VECTOR ( 'NONE', #199, 1000.000000000000114 ) ;
#302 = LINE ( 'NONE', #144, #89 ) ;
#303 = EDGE_CURVE ( 'NONE', #272, #65, #175, .T. ) ;
#304 = CARTESIAN_POINT ( 'NONE',  ( -6.349999999999998757, -6.349999999999997868, 6.349999999999999645 ) ) ;
#305 = LINE ( 'NONE', #230, #162 ) ;
#306 = AXIS2_PLACEMENT_3D ( 'NONE', #233, #129, #258 ) ;
#307 = DIRECTION ( 'NONE',  ( -6.829619984160658046E-17, 1.000000000000000000, -0.000000000000000000 ) ) ;
#308 = LINE ( 'NONE', #84, #20 ) ;
#309 = DIRECTION ( 'NONE',  ( -0.000000000000000000, -0.000000000000000000, -1.000000000000000000 ) ) ;
#310 = VERTEX_POINT ( 'NONE', #176 ) ;
#311 = DIRECTION ( 'NONE',  ( -0.000000000000000000, -0.000000000000000000, -1.000000000000000000 ) ) ;
#312 = AXIS2_PLACEMENT_3D ( 'NONE', #278, #47, #30 ) ;
#313 = ORIENTED_EDGE ( 'NONE', *, *, #172, .F. ) ;
#314 = ADVANCED_FACE ( 'NONE', ( #203 ), #174, .F. ) ;
#315 = AXIS2_PLACEMENT_3D ( 'NONE', #265, #131, #134 ) ;
#316 = VERTEX_POINT ( 'NONE', #31 ) ;
#317 = PLANE ( 'NONE',  #87 ) ;
#318 = PERSON_AND_ORGANIZATION_ROLE ( 'classification_officer' ) ;
#319 = FACE_OUTER_BOUND ( 'NONE', #154, .T. ) ;
#320 = LINE ( 'NONE', #101, #301 ) ;
#321 = COORDINATED_UNIVERSAL_TIME_OFFSET ( 8, 0, .AHEAD. ) ;
ENDSEC;
END-ISO-10303-21;
